Slash toca el padrino.

El mas grande de la guitarra toca el padrino je es un genio algo tan sencillo suena excelente en el!!!!


Acá esta la tablatura de la parte de el padrino:
 
   EL PADRINO
6 -------------------------------------------
5 -------------------------------------------
4 -------------------------------------------
3 ----------- 15-----------15----------------
2 -14-13-14-14--14-13-14-14------------------
1 -------------------------------------------

6 -------------------------------------------
5 -------------------------------------------
4 -------------------------------------------
3 -----12------------------------------------
2 14-13--14-13-14-14-13-9-9-15-13------------
1 -------------------------------------------

6 -------------------------------------------
5 -------------------------------------------
4 -------------------------------------------
3 -------------------------------------------
2 9-------------------10-12-9----------------
1 -9-12-11-9-12-9-11-9-----------------------

6 ------------------------------------------
5 ------------------------------------------
4 ------------------------------------------
3 ------------------------------------------
2 9-------------------9-8-7--7-10----7-10---
1 -9-12-11-9-12-9-11-9-----------8-11----8-9

6 ------------------------------------------
5 ------------------------------------------
4 11-------------------10-11----------------
3 --9---------------------------------------
2 ---12-10-9-12-10-9--9---------------------
1 ------------------------------------------
[/left]
6 ------------------------------------------
5 ------------------------------------------
4 ------------------------------------------
3 ------------------------------------------
2 ------------------------------------------
1 9'9-8-7-11-7-5-4*4'4-3-2-7-2-3------------
[/left]
jeje... esta muy buena porque no es la forma tradicional de tocarla empezando con la posición de LA.[/left]
Slash toca el padrino.
0 Puntos Score: 0/10
Visitas: 934 Favoritos: 0
3 Comentarios Slash toca el padrino.
bue la tablatura no tenia ganas de acomodarla pero esta aca: http://www.tusacordes.com/secciones/ver_tema.php?id=19128          es sencilla igual.
excelente video..
Que genio Slash!
Para dejar un comentario Registrate! o.. eres ya usuario? Accede!